Something stares and something tries and
Starts to climb towards the light
Pink Floyd (Echoes)
Поиск
Вход на сайт
Логин
Пароль
Регистрация
Забыли пароль?
Подписка на рассылку


Pink-Floyd.ru > Форум > Аккорды > Страница 2

Форум
 

Аккорды (сообщений - 59)
Метки

Страница 1 2 3

Don_Rumata   28.06.2005 06:14
Табы придумали ленивые и музыкально безграмотные гитаристы (такие как я, к примеру). И действительно, ПФ никакого отношения к ним не имеют. И иронии я тут не вижу никакой.
Они просто сочиняют музыку, а потом уже (без)грамотные её подбирают и пишут табы.
Есть несогласные? =)

 

Igor   28.06.2005 13:34
Несогласных - нет! ;)

 

Valerik   05.03.2006 13:50
один из лучших ресурсов, что я находил по аккордам и табулатурам классики рока в сети.

http://rockmagic.net

 

dron   05.03.2006 22:55
Только что подобранная мной On An Island,только для вас друзья мои!

On An Island


Em Am
Remember that night
C Bm
White steps in the moonlight
Em Am
They walked here too
C Bm
Through empty playground, this ghosts' town
Em Am C Bm
Children again, on rusting swings getting higher
Em Am C Bm B
Sharing a dream, on an island, it felt right
Em Bm
We lay side by side
Dm Am
Between the moon and the tide
Cm Gm A
Mapping the stars for a while
G
Let the night surround you
We're halfway to the stars
Ebb and flow
Let it go
Feel her warmth beside you

Соло:
Em C G

Em Bm Dm Am Cm Gm A

Em Am
Remember that night
C Bm
The warmth and the laughter
Em Am
Candles burned
C Bm
Though the church was deserted
Em Am C Bm
At dawn we went down through empty streets to the harbour
Em Am C Bm B
Dreamers may leave, but they're here ever after

Em Bm Dm Am Cm Gm A

G
Let the night surround you
We're halfway to the stars
Ebb and flow
Let it go
Feel her warmth beside you

Второе соло:
Em Am C Bm
Отредактировано пользователем  dron 06.03.2006 13:57.

 

squonk   06.03.2006 00:03
Ты там лишних си-мажоров понаставил, они не везде есть

Em Am
Remember that night
C Bm
White steps in the moonlight
Em Am
They walked here too
C Bm B
Through empty playground, this ghosts' town
Em Am C Bm
Children again, on rusting swings getting higher
Em Am C Bm B
Sharing a dream, on an island, it felt right


А эта часть вообще зело сомнительна

G
Let the night surround you
We're halfway to the stars
Ebb and flow
Let it go
Feel her warmth beside you

Впрочем, неважно.

 

Movie   06.03.2006 11:57
Понятное дело, никто из известных музыкантов не имеет отношения к табам. Их снимают энтузиасты, порой, правда безграмотные...

 

dron   06.03.2006 17:44
Кстати,никто ещё не начал снимать соло с нового альбома Дэйва?Я вот второе соло Он Эн Айлэнд подбираю,пока получается.

Movie а ты считаешь,что Дэйв все свои соляки по нотам расписывает,но он же сам говорил,что у него нет муз образования.

 

sysyphus   06.03.2006 23:08
Удалено пользователем  sysyphus 13.09.2014 17:28.

 

Igor   06.03.2006 23:50
Ну Вы даёте! С китайской граммотой на "Ты"! :)

Может быть Гилмор в нотах не орёл, но аккорды как орешки в интервью щёлкает.

 

Valerik   07.03.2006 01:02
Аккорды как орешки щелкает любой, кто играет на гитаре больше 5 месяцев :))
Много ума не надо чтобы сказать Em или G :)))

А муз. образование... Он все равно достаточно подкован в этом вопросе. Хочешь не хочешь, а придется выучить нотки и аккордики с названиями грамотными, если занимаешьяс муыкой серьезно. А больше ничего и не надо особо :) Другой вопрос, что запись партии вести сложно... Табулатуры же упрощенный вариант нотного стана. В табах длительностей нет, а это ужасно порой :) Но, как тут было замечено, соло Гилмора - результат длительных импровизаций, во время которых отбирались лучшие кусочки.

 

MeLoMaN   07.03.2006 11:48
Так и Comfortably Numb была написана..
Ритмический рисунок пускали несколько раз, Гилмор придумывал разные соло. Потом при одновременном воспроизведении ритмического рисунка с разными партиями просто одну поднимали в громкости, а другие глушили.
Как на бумаге - те такты идут, а те нет, а потом сшивать. Итого - шедевр

 

Movie   07.03.2006 11:54

Знание нотной грамоты не имеет никакого значения.

Как сказал поэт:

"Ты говоришь, что знаешь ноты,
Ну а по-моему - говно ты"


 

dron   07.03.2006 15:26
Да я согласен,ноты знать не обязательно.Знает Дэйв нотную грамоту или нет значения не имеет.Он и так и так оставался бы мелодичным человеком.Вот хоть и знаю нотную грамоту,это мне жизнь гн особо облегчает,я её знаю потому что это нужно мне как классическому гитаристу и в учёбе.А когда я играю рок(на соответствующей гитаре) то пользуюсь табами,хотя не отказался бы соляков Pink Floyd написанных нотами,потому что на табах длительности намного сложней показать.Вот на ф-но ноты знать куда важнее чем на гитаре.

 

michelle   07.03.2006 15:56
На гитаре табы помогают до определенных пределов, а потом без нот ни шагу.
От восемнадцатого сонета я б тоже не отказалась )

 

Valerik   09.03.2006 22:29
К подобранным выше аккорда On An Island добавлю лишь то, что лучше играть не просто С, а Cmaj7 (332000 EADGBE)

 

Shimych   28.03.2006 02:12
Привет самым стойким! Ребята, подскажите где можно найти табы Crazy Diamond, акустического варианта из Гилморовского Concert At Meltdown. Обалденная вещь, пытался переснять на гитару, да в некоторых местах это довольно проблемно. Кстати, а как вам эта вещь и концерт в целом ?

 

Niki_sk   24.08.2006 12:10
Ребят,не подсажете табы POLES APART? интересное звучание акустики,но че то там аккорды каие то мудреные...заранее пасиб!!!


 

dron   24.08.2006 14:15
POLES APART

D-|------------0-----------------0--------|
A-|------0-----------0-----0-----------0--|
G-|---7-----------------6-----------6-----|
D-|---------5-----5-----------5-----------|
A-|---------------------------------------|
D-|---------------------------------------|

D-|------------0-----------------0--------|
A-|------0-----------0-----0-----------0--|
G-|---4-----------------6-----------6-----|
D-|---------5-----5-----------5-----------|
A-|---------------------------------------|
D-|---------------------------------------|

D-|------------0-----------------0--------|
A-|------0-----------0-----0-----------0--|
G-|---7-----------------6-----------6-----|
D-|---------5-----5-----------5-----------|
A-|---------------------------------------|
D-|---------------------------------------|
________________________________________
|1.-3 3x
D-|------------0-----------------0---------||
A-|------0-----------0-----0-----------0---||
G-|---4-----------------6-----------6-----*||
D-|---------5-----5-----------5-----------*||
A-|----------------------------------------||
D-|----------------------------------------||
_______________________________________
|4.
D-|------------0-----------------0--------||
A-|------0-----------0-----0-----------0--||
G-|---4-----------------2-----0-----0-----||
D-|---------5-----5-----------------------||
A-|---------------------------------------||
D-|---------------------------------------||


Rhythm figure 1
D-|-----------------------------------------|
A-|------------------0----------------------|
G-|------------0-----------------0----------|
D-|------4--------4--------4-------------4--|
A-|---------0-----------------0-------------|
D-|---0-----------------0-----------(0)-----|

D-|-----------------------------------------|
A-|------------------0----------------------|
G-|------------0-----------------0----------|
D-|------4--------4--------4-------------4--|
A-|---------0-----------------0-------------|
D-|---0-----------------0-----------(0)-----|

D-|-----------------------------------------|
A-|------------------0----------------------|
G-|------------0-----------------0----------|
D-|------4--------4--------4-------------4--|
A-|---------0-----------------0-------------|
D-|---0-----------------0-----------(0)-----|

D-|-----------------------------------------||
A-|------------------0----------------------||
G-|------------0-----------------0----------||
D-|------4--------4--------4-------------4--||
A-|---------0-----------------0-------------||
D-|---0-----------------0-----------(0)-----||

Rhythm figure 2
D-|------------------------------------|
A-|------------------0-----------------|
G-|------------0-----------------0-----|
D-|------0--------0--------0--------0--|
A-|---------5-----------------5--------|
D-|---5-----------------5--------------|

D-|------------------------------------|
A-|------------------0-----------------|
G-|------------0-----------------0-----|
D-|------0--------0--------0--------0--|
A-|---------5-----------------5--------|
D-|---5-----------------5--------------|

D-|------------------------------------|
A-|------------------0-----------------|
G-|------------0-----------------0-----|
D-|------0--------0--------0--------0--|
A-|---------5-----------------5--------|
D-|---5-----------------5--------------|

D-|------------------------------------||
A-|------------------0-----------------||
G-|------------0-----------------0-----||
D-|------0--------0--------0--------0--||
A-|---------5-----------------5--------||
D-|---5-----------------5--------------||


 

LesPaul   10.10.2006 00:24
Друзья, подскажите аккорды на Smail. А то я что-то не могу никак подобрать. Замучался уже.


 

IGOR_CHOP   11.10.2006 02:05
LesPaul> аккорды на Smail.
для какого инструмента?
но там вроде все не сложно, по крайней мере для ф-но.

 

Страница 1 2 3

   
 
© Pink-Floyd.ru 2004-2020. Использование авторских материалов сайта Pink-Floyd.ru невозможно без разрешения редакции.
О сайте